ISO-10303-21;
HEADER;
/* Generated by software containing ST-Developer
 * from STEP Tools, Inc. (www.steptools.com) 
 */

FILE_DESCRIPTION(
/* description */ (''),
/* implementation_level */ '2;1');

FILE_NAME(
/* name */ 'V:\\AUTOCAD\\_tegninger\\Stepfiles - 3D\\PB10\\PB10CNT20.s
tp',
/* time_stamp */ '2017-04-20T10:13:31+02:00',
/* author */ ('tvb'),
/* organization */ (''),
/* preprocessor_version */ 'ST-DEVELOPER v16.1',
/* originating_system */ 'Autodesk Inventor 2016',
/* authorisation */ '');

FILE_SCHEMA (('AUTOMOTIVE_DESIGN { 1 0 10303 214 3 1 1 }'));
ENDSEC;

DATA;
#10=MECHANICAL_DESIGN_GEOMETRIC_PRESENTATION_REPRESENTATION('',(#21,#22,
#23,#20),#292);
#11=SHAPE_REPRESENTATION_RELATIONSHIP('SRR','None',#302,#12);
#12=ADVANCED_BREP_SHAPE_REPRESENTATION('',(#13),#291);
#13=MANIFOLD_SOLID_BREP('Solid3',#163);
#14=TOROIDAL_SURFACE('',#177,0.275,0.05);
#15=TOROIDAL_SURFACE('',#184,0.375,0.05);
#16=TOROIDAL_SURFACE('',#191,0.2,0.05);
#17=SPHERICAL_SURFACE('',#174,0.61);
#18=CONICAL_SURFACE('',#172,0.49375,0.209006108485145);
#19=CONICAL_SURFACE('',#180,0.402835901843983,75.);
#20=STYLED_ITEM('',(#312),#151);
#21=STYLED_ITEM('',(#312),#152);
#22=STYLED_ITEM('',(#312),#153);
#23=STYLED_ITEM('',(#311),#13);
#24=PLANE('',#168);
#25=PLANE('',#169);
#26=PLANE('',#185);
#27=PLANE('',#187);
#28=FACE_BOUND('',#55,.T.);
#29=FACE_BOUND('',#58,.T.);
#30=FACE_BOUND('',#60,.T.);
#31=FACE_BOUND('',#63,.T.);
#32=FACE_BOUND('',#65,.T.);
#33=FACE_BOUND('',#67,.T.);
#34=FACE_BOUND('',#69,.T.);
#35=FACE_BOUND('',#71,.T.);
#36=FACE_BOUND('',#73,.T.);
#37=FACE_BOUND('',#75,.T.);
#38=FACE_BOUND('',#77,.T.);
#39=FACE_BOUND('',#79,.T.);
#40=FACE_OUTER_BOUND('',#54,.T.);
#41=FACE_OUTER_BOUND('',#56,.T.);
#42=FACE_OUTER_BOUND('',#57,.T.);
#43=FACE_OUTER_BOUND('',#59,.T.);
#44=FACE_OUTER_BOUND('',#61,.T.);
#45=FACE_OUTER_BOUND('',#62,.T.);
#46=FACE_OUTER_BOUND('',#64,.T.);
#47=FACE_OUTER_BOUND('',#66,.T.);
#48=FACE_OUTER_BOUND('',#68,.T.);
#49=FACE_OUTER_BOUND('',#70,.T.);
#50=FACE_OUTER_BOUND('',#72,.T.);
#51=FACE_OUTER_BOUND('',#74,.T.);
#52=FACE_OUTER_BOUND('',#76,.T.);
#53=FACE_OUTER_BOUND('',#78,.T.);
#54=EDGE_LOOP('',(#119));
#55=EDGE_LOOP('',(#120));
#56=EDGE_LOOP('',(#121));
#57=EDGE_LOOP('',(#122));
#58=EDGE_LOOP('',(#123));
#59=EDGE_LOOP('',(#124));
#60=EDGE_LOOP('',(#125));
#61=EDGE_LOOP('',(#126));
#62=EDGE_LOOP('',(#127));
#63=EDGE_LOOP('',(#128));
#64=EDGE_LOOP('',(#129));
#65=EDGE_LOOP('',(#130));
#66=EDGE_LOOP('',(#131));
#67=EDGE_LOOP('',(#132));
#68=EDGE_LOOP('',(#133));
#69=EDGE_LOOP('',(#134));
#70=EDGE_LOOP('',(#135));
#71=EDGE_LOOP('',(#136));
#72=EDGE_LOOP('',(#137));
#73=EDGE_LOOP('',(#138));
#74=EDGE_LOOP('',(#139));
#75=EDGE_LOOP('',(#140));
#76=EDGE_LOOP('',(#141));
#77=EDGE_LOOP('',(#142));
#78=EDGE_LOOP('',(#143));
#79=EDGE_LOOP('',(#144));
#80=CIRCLE('',#166,0.145);
#81=CIRCLE('',#167,0.145);
#82=CIRCLE('',#170,0.5);
#83=CIRCLE('',#171,0.480671803687965);
#84=CIRCLE('',#173,0.4875);
#85=CIRCLE('',#176,0.480671803687965);
#86=CIRCLE('',#178,0.275);
#87=CIRCLE('',#179,0.325);
#88=CIRCLE('',#181,0.362059047744874);
#89=CIRCLE('',#183,0.325);
#90=CIRCLE('',#186,0.15);
#91=CIRCLE('',#188,0.2);
#92=CIRCLE('',#190,0.15);
#93=VERTEX_POINT('',#250);
#94=VERTEX_POINT('',#252);
#95=VERTEX_POINT('',#256);
#96=VERTEX_POINT('',#258);
#97=VERTEX_POINT('',#261);
#98=VERTEX_POINT('',#265);
#99=VERTEX_POINT('',#268);
#100=VERTEX_POINT('',#270);
#101=VERTEX_POINT('',#273);
#102=VERTEX_POINT('',#276);
#103=VERTEX_POINT('',#280);
#104=VERTEX_POINT('',#283);
#105=VERTEX_POINT('',#286);
#106=EDGE_CURVE('',#93,#93,#80,.T.);
#107=EDGE_CURVE('',#94,#94,#81,.T.);
#108=EDGE_CURVE('',#95,#95,#82,.T.);
#109=EDGE_CURVE('',#96,#96,#83,.T.);
#110=EDGE_CURVE('',#97,#97,#84,.T.);
#111=EDGE_CURVE('',#98,#98,#85,.T.);
#112=EDGE_CURVE('',#99,#99,#86,.T.);
#113=EDGE_CURVE('',#100,#100,#87,.T.);
#114=EDGE_CURVE('',#101,#101,#88,.T.);
#115=EDGE_CURVE('',#102,#102,#89,.T.);
#116=EDGE_CURVE('',#103,#103,#90,.T.);
#117=EDGE_CURVE('',#104,#104,#91,.T.);
#118=EDGE_CURVE('',#105,#105,#92,.T.);
#119=ORIENTED_EDGE('',*,*,#106,.F.);
#120=ORIENTED_EDGE('',*,*,#107,.F.);
#121=ORIENTED_EDGE('',*,*,#106,.T.);
#122=ORIENTED_EDGE('',*,*,#108,.T.);
#123=ORIENTED_EDGE('',*,*,#109,.T.);
#124=ORIENTED_EDGE('',*,*,#108,.F.);
#125=ORIENTED_EDGE('',*,*,#110,.T.);
#126=ORIENTED_EDGE('',*,*,#110,.F.);
#127=ORIENTED_EDGE('',*,*,#111,.T.);
#128=ORIENTED_EDGE('',*,*,#109,.F.);
#129=ORIENTED_EDGE('',*,*,#112,.T.);
#130=ORIENTED_EDGE('',*,*,#113,.T.);
#131=ORIENTED_EDGE('',*,*,#111,.F.);
#132=ORIENTED_EDGE('',*,*,#114,.F.);
#133=ORIENTED_EDGE('',*,*,#113,.F.);
#134=ORIENTED_EDGE('',*,*,#115,.F.);
#135=ORIENTED_EDGE('',*,*,#115,.T.);
#136=ORIENTED_EDGE('',*,*,#114,.T.);
#137=ORIENTED_EDGE('',*,*,#116,.T.);
#138=ORIENTED_EDGE('',*,*,#107,.T.);
#139=ORIENTED_EDGE('',*,*,#112,.F.);
#140=ORIENTED_EDGE('',*,*,#117,.F.);
#141=ORIENTED_EDGE('',*,*,#116,.F.);
#142=ORIENTED_EDGE('',*,*,#118,.F.);
#143=ORIENTED_EDGE('',*,*,#118,.T.);
#144=ORIENTED_EDGE('',*,*,#117,.T.);
#145=CYLINDRICAL_SURFACE('',#165,0.145);
#146=CYLINDRICAL_SURFACE('',#175,0.480671803687965);
#147=CYLINDRICAL_SURFACE('',#182,0.325);
#148=CYLINDRICAL_SURFACE('',#189,0.15);
#149=ADVANCED_FACE('',(#40,#28),#145,.T.);
#150=ADVANCED_FACE('',(#41),#24,.T.);
#151=ADVANCED_FACE('',(#42,#29),#25,.T.);
#152=ADVANCED_FACE('',(#43,#30),#18,.T.);
#153=ADVANCED_FACE('',(#44),#17,.T.);
#154=ADVANCED_FACE('',(#45,#31),#146,.T.);
#155=ADVANCED_FACE('',(#46,#32),#14,.T.);
#156=ADVANCED_FACE('',(#47,#33),#19,.T.);
#157=ADVANCED_FACE('',(#48,#34),#147,.T.);
#158=ADVANCED_FACE('',(#49,#35),#15,.F.);
#159=ADVANCED_FACE('',(#50,#36),#26,.F.);
#160=ADVANCED_FACE('',(#51,#37),#27,.T.);
#161=ADVANCED_FACE('',(#52,#38),#148,.F.);
#162=ADVANCED_FACE('',(#53,#39),#16,.T.);
#163=CLOSED_SHELL('',(#149,#150,#151,#152,#153,#154,#155,#156,#157,#158,
#159,#160,#161,#162));
#164=AXIS2_PLACEMENT_3D('placement',#248,#192,#193);
#165=AXIS2_PLACEMENT_3D('',#249,#194,#195);
#166=AXIS2_PLACEMENT_3D('',#251,#196,#197);
#167=AXIS2_PLACEMENT_3D('',#253,#198,#199);
#168=AXIS2_PLACEMENT_3D('',#254,#200,#201);
#169=AXIS2_PLACEMENT_3D('',#255,#202,#203);
#170=AXIS2_PLACEMENT_3D('',#257,#204,#205);
#171=AXIS2_PLACEMENT_3D('',#259,#206,#207);
#172=AXIS2_PLACEMENT_3D('',#260,#208,#209);
#173=AXIS2_PLACEMENT_3D('',#262,#210,#211);
#174=AXIS2_PLACEMENT_3D('',#263,#212,#213);
#175=AXIS2_PLACEMENT_3D('',#264,#214,#215);
#176=AXIS2_PLACEMENT_3D('',#266,#216,#217);
#177=AXIS2_PLACEMENT_3D('',#267,#218,#219);
#178=AXIS2_PLACEMENT_3D('',#269,#220,#221);
#179=AXIS2_PLACEMENT_3D('',#271,#222,#223);
#180=AXIS2_PLACEMENT_3D('',#272,#224,#225);
#181=AXIS2_PLACEMENT_3D('',#274,#226,#227);
#182=AXIS2_PLACEMENT_3D('',#275,#228,#229);
#183=AXIS2_PLACEMENT_3D('',#277,#230,#231);
#184=AXIS2_PLACEMENT_3D('',#278,#232,#233);
#185=AXIS2_PLACEMENT_3D('',#279,#234,#235);
#186=AXIS2_PLACEMENT_3D('',#281,#236,#237);
#187=AXIS2_PLACEMENT_3D('',#282,#238,#239);
#188=AXIS2_PLACEMENT_3D('',#284,#240,#241);
#189=AXIS2_PLACEMENT_3D('',#285,#242,#243);
#190=AXIS2_PLACEMENT_3D('',#287,#244,#245);
#191=AXIS2_PLACEMENT_3D('',#288,#246,#247);
#192=DIRECTION('axis',(0.,0.,1.));
#193=DIRECTION('refdir',(1.,0.,0.));
#194=DIRECTION('center_axis',(1.,1.77680180682833E-15,0.));
#195=DIRECTION('ref_axis',(-1.77680180682833E-15,1.,0.));
#196=DIRECTION('center_axis',(1.,1.77680180682833E-15,0.));
#197=DIRECTION('ref_axis',(-1.77680180682833E-15,1.,0.));
#198=DIRECTION('center_axis',(-1.,-1.77680180682833E-15,0.));
#199=DIRECTION('ref_axis',(-1.77680180682833E-15,1.,0.));
#200=DIRECTION('center_axis',(1.,1.77680180682833E-15,0.));
#201=DIRECTION('ref_axis',(1.77635683940025E-15,-1.,0.));
#202=DIRECTION('center_axis',(1.,0.,0.));
#203=DIRECTION('ref_axis',(0.,0.,-1.));
#204=DIRECTION('center_axis',(1.,0.,0.));
#205=DIRECTION('ref_axis',(0.,1.,0.));
#206=DIRECTION('center_axis',(-1.,0.,0.));
#207=DIRECTION('ref_axis',(-1.77680180682833E-15,1.,0.));
#208=DIRECTION('center_axis',(1.,0.,0.));
#209=DIRECTION('ref_axis',(0.,1.,0.));
#210=DIRECTION('center_axis',(1.,0.,0.));
#211=DIRECTION('ref_axis',(0.,1.,0.));
#212=DIRECTION('center_axis',(0.,0.,1.));
#213=DIRECTION('ref_axis',(1.,0.,0.));
#214=DIRECTION('center_axis',(-1.,-1.77680180682833E-15,0.));
#215=DIRECTION('ref_axis',(-1.77680180682833E-15,1.,0.));
#216=DIRECTION('center_axis',(-1.,-1.77680180682833E-15,0.));
#217=DIRECTION('ref_axis',(0.,0.,1.));
#218=DIRECTION('center_axis',(-1.,-1.77680180682833E-15,0.));
#219=DIRECTION('ref_axis',(0.,0.,1.));
#220=DIRECTION('center_axis',(-1.,-1.77680180682833E-15,0.));
#221=DIRECTION('ref_axis',(1.77680180682833E-15,-1.,-1.83697019872103E-16));
#222=DIRECTION('center_axis',(1.,1.77680180682833E-15,0.));
#223=DIRECTION('ref_axis',(1.77680180682833E-15,-1.,-1.83697019872103E-16));
#224=DIRECTION('center_axis',(-1.,-1.77680180682833E-15,0.));
#225=DIRECTION('ref_axis',(-1.77680180682833E-15,1.,0.));
#226=DIRECTION('center_axis',(1.,1.77680180682833E-15,0.));
#227=DIRECTION('ref_axis',(1.77680180682833E-15,-1.,-3.06161699786838E-17));
#228=DIRECTION('center_axis',(-1.,-1.77680180682833E-15,0.));
#229=DIRECTION('ref_axis',(-1.77680180682833E-15,1.,0.));
#230=DIRECTION('center_axis',(-1.,-1.77680180682833E-15,0.));
#231=DIRECTION('ref_axis',(1.77680180682833E-15,-1.,-1.83697019872103E-16));
#232=DIRECTION('center_axis',(-1.,-1.77680180682833E-15,0.));
#233=DIRECTION('ref_axis',(0.,0.,1.));
#234=DIRECTION('center_axis',(-1.,-1.77680180682833E-15,0.));
#235=DIRECTION('ref_axis',(0.,0.,1.));
#236=DIRECTION('center_axis',(1.,1.77680180682833E-15,0.));
#237=DIRECTION('ref_axis',(0.,0.,1.));
#238=DIRECTION('center_axis',(1.,1.77680180682833E-15,0.));
#239=DIRECTION('ref_axis',(0.,0.,-1.));
#240=DIRECTION('center_axis',(1.,1.77680180682833E-15,0.));
#241=DIRECTION('ref_axis',(0.,0.,1.));
#242=DIRECTION('center_axis',(-1.,-1.77680180682833E-15,0.));
#243=DIRECTION('ref_axis',(0.,0.,1.));
#244=DIRECTION('center_axis',(-1.,-1.77680180682833E-15,0.));
#245=DIRECTION('ref_axis',(0.,0.,1.));
#246=DIRECTION('center_axis',(-1.,-1.77680180682833E-15,0.));
#247=DIRECTION('ref_axis',(0.,0.,1.));
#248=CARTESIAN_POINT('',(0.,0.,0.));
#249=CARTESIAN_POINT('Origin',(1.62691797633825,0.196019297440965,4.44089209850063E-16));
#250=CARTESIAN_POINT('',(3.11691797633825,0.0510192974409679,4.26331831262426E-16));
#251=CARTESIAN_POINT('Origin',(3.11691797633825,0.196019297440968,4.44089209850063E-16));
#252=CARTESIAN_POINT('',(1.62691797633825,0.0510192974409653,4.26331831262426E-16));
#253=CARTESIAN_POINT('Origin',(1.62691797633825,0.196019297440965,4.44089209850063E-16));
#254=CARTESIAN_POINT('Origin',(3.11691797633825,0.196019297440968,4.42095274820204E-16));
#255=CARTESIAN_POINT('Origin',(1.62691797633825,0.645118553297622,4.44089209850063E-16));
#256=CARTESIAN_POINT('',(1.62691797633825,0.696019297440967,4.44089209850063E-16));
#257=CARTESIAN_POINT('Origin',(1.62691797633825,0.196019297440967,4.44089209850063E-16));
#258=CARTESIAN_POINT('',(1.62691797633825,0.67669110112893,4.44089209850063E-16));
#259=CARTESIAN_POINT('Origin',(1.62691797633825,0.196019297440965,4.44089209850063E-16));
#260=CARTESIAN_POINT('Origin',(-0.0864148835096222,0.196019297440967,4.44089209850063E-16));
#261=CARTESIAN_POINT('',(-1.7997477433575,0.683519297440967,4.44089209850063E-16));
#262=CARTESIAN_POINT('Origin',(-1.7997477433575,0.196019297440967,4.44089209850063E-16));
#263=CARTESIAN_POINT('Origin',(-1.43308202366175,0.196019297440967,4.44089209850063E-16));
#264=CARTESIAN_POINT('Origin',(1.67691797633825,0.196019297440965,4.44089209850063E-16));
#265=CARTESIAN_POINT('',(1.72691797633825,0.676691101128931,4.44089209850063E-16));
#266=CARTESIAN_POINT('Origin',(1.72691797633825,0.196019297440965,4.44089209850063E-16));
#267=CARTESIAN_POINT('Origin',(2.06691797633825,0.196019297440966,4.44089209850063E-16));
#268=CARTESIAN_POINT('',(2.11691797633825,0.471019297440966,4.60928103338339E-16));
#269=CARTESIAN_POINT('Origin',(2.11691797633825,0.196019297440966,4.44089209850063E-16));
#270=CARTESIAN_POINT('',(2.06691797633825,0.521019297440966,5.43591762280785E-16));
#271=CARTESIAN_POINT('Origin',(2.06691797633825,0.196019297440966,4.44089209850063E-16));
#272=CARTESIAN_POINT('Origin',(1.74777404337949,0.196019297440965,4.44089209850063E-16));
#273=CARTESIAN_POINT('',(1.75870016850523,0.558078345185839,5.54937823330837E-16));
#274=CARTESIAN_POINT('Origin',(1.75870016850523,0.196019297440966,4.9951351659045E-16));
#275=CARTESIAN_POINT('Origin',(1.94277404337949,0.196019297440966,4.44089209850063E-16));
#276=CARTESIAN_POINT('',(1.80699645981969,0.521019297440966,4.63989720336207E-16));
#277=CARTESIAN_POINT('Origin',(1.80699645981969,0.196019297440966,4.44089209850063E-16));
#278=CARTESIAN_POINT('Origin',(1.80699645981969,0.196019297440966,4.44089209850063E-16));
#279=CARTESIAN_POINT('Origin',(1.62691797633825,0.196019297440965,4.44089209850063E-16));
#280=CARTESIAN_POINT('',(1.62691797633825,0.196019297440965,-0.15));
#281=CARTESIAN_POINT('Origin',(1.62691797633825,0.196019297440965,4.44089209850063E-16));
#282=CARTESIAN_POINT('Origin',(2.11691797633825,0.521019297440966,4.44089209850063E-16));
#283=CARTESIAN_POINT('',(2.11691797633825,0.196019297440966,-0.2));
#284=CARTESIAN_POINT('Origin',(2.11691797633825,0.196019297440966,4.44089209850063E-16));
#285=CARTESIAN_POINT('Origin',(2.11691797633825,0.196019297440966,4.44089209850063E-16));
#286=CARTESIAN_POINT('',(2.06691797633825,0.196019297440966,-0.15));
#287=CARTESIAN_POINT('Origin',(2.06691797633825,0.196019297440966,4.44089209850063E-16));
#288=CARTESIAN_POINT('Origin',(2.06691797633825,0.196019297440966,4.44089209850063E-16));
#289=UNCERTAINTY_MEASURE_WITH_UNIT(LENGTH_MEASURE(0.001),#293,
'DISTANCE_ACCURACY_VALUE',
'Maximum model space distance between geometric entities at asserted c
onnectivities');
#290=UNCERTAINTY_MEASURE_WITH_UNIT(LENGTH_MEASURE(1.E-6),#294,
'DISTANCE_ACCURACY_VALUE',
'Maximum model space distance between geometric entities at asserted c
onnectivities');
#291=(
GEOMETRIC_REPRESENTATION_CONTEXT(3)
GLOBAL_UNCERTAINTY_ASSIGNED_CONTEXT((#289))
GLOBAL_UNIT_ASSIGNED_CONTEXT((#293,#297,#295))
REPRESENTATION_CONTEXT('','3D')
);
#292=(
GEOMETRIC_REPRESENTATION_CONTEXT(3)
GLOBAL_UNCERTAINTY_ASSIGNED_CONTEXT((#290))
GLOBAL_UNIT_ASSIGNED_CONTEXT((#294,#297,#295))
REPRESENTATION_CONTEXT('','3D')
);
#293=(
LENGTH_UNIT()
NAMED_UNIT(*)
SI_UNIT(.CENTI.,.METRE.)
);
#294=(
LENGTH_UNIT()
NAMED_UNIT(*)
SI_UNIT(.MILLI.,.METRE.)
);
#295=(
NAMED_UNIT(*)
SI_UNIT($,.STERADIAN.)
SOLID_ANGLE_UNIT()
);
#296=DIMENSIONAL_EXPONENTS(0.,0.,0.,0.,0.,0.,0.);
#297=(
CONVERSION_BASED_UNIT('degree',#299)
NAMED_UNIT(#296)
PLANE_ANGLE_UNIT()
);
#298=(
NAMED_UNIT(*)
PLANE_ANGLE_UNIT()
SI_UNIT($,.RADIAN.)
);
#299=PLANE_ANGLE_MEASURE_WITH_UNIT(PLANE_ANGLE_MEASURE(0.01745329252),#298);
#300=SHAPE_DEFINITION_REPRESENTATION(#301,#302);
#301=PRODUCT_DEFINITION_SHAPE('',$,#304);
#302=SHAPE_REPRESENTATION('',(#164),#291);
#303=PRODUCT_DEFINITION_CONTEXT('part definition',#308,'design');
#304=PRODUCT_DEFINITION('PB10CNT20','PB10CNT20',#305,#303);
#305=PRODUCT_DEFINITION_FORMATION('',$,#310);
#306=PRODUCT_RELATED_PRODUCT_CATEGORY('PB10CNT20','PB10CNT20',(#310));
#307=APPLICATION_PROTOCOL_DEFINITION('international standard',
'automotive_design',2009,#308);
#308=APPLICATION_CONTEXT(
'Core Data for Automotive Mechanical Design Process');
#309=PRODUCT_CONTEXT('part definition',#308,'mechanical');
#310=PRODUCT('PB10CNT20','PB10CNT20',$,(#309));
#311=PRESENTATION_STYLE_ASSIGNMENT((#313));
#312=PRESENTATION_STYLE_ASSIGNMENT((#314));
#313=SURFACE_STYLE_USAGE(.BOTH.,#315);
#314=SURFACE_STYLE_USAGE(.BOTH.,#316);
#315=SURFACE_SIDE_STYLE('',(#317));
#316=SURFACE_SIDE_STYLE('',(#318));
#317=SURFACE_STYLE_FILL_AREA(#319);
#318=SURFACE_STYLE_FILL_AREA(#320);
#319=FILL_AREA_STYLE('',(#321));
#320=FILL_AREA_STYLE('',(#322));
#321=FILL_AREA_STYLE_COLOUR('',#323);
#322=FILL_AREA_STYLE_COLOUR('',#324);
#323=COLOUR_RGB('',0.749019607843137,0.749019607843137,0.749019607843137);
#324=COLOUR_RGB('',0.752941176470588,0.752941176470588,0.752941176470588);
ENDSEC;
END-ISO-10303-21;
